  0
SECTION
  2
HEADER
  9
$ACADVER
  1
AC1015
  9
$ACADMAINTVER
 70
     6
  9
$DWGCODEPAGE
  3
ANSI_1254
  9
$INSBASE
 10
0.0
 20
0.0
 30
0.0
  9
$EXTMIN
 10
0.0
 20
0.0
 30
0.0
  9
$EXTMAX
 10
279.4
 20
215.9
 30
0.0
  9
$LIMMIN
 10
0.0
 20
0.0
  9
$LIMMAX
 10
279.4
 20
215.9
  9
$ORTHOMODE
 70
     0
  9
$REGENMODE
 70
     1
  9
$FILLMODE
 70
     1
  9
$QTEXTMODE
 70
     0
  9
$MIRRTEXT
 70
     1
  9
$LTSCALE
 40
1.0
  9
$ATTMODE
 70
     1
  9
$TEXTSIZE
 40
3.5
  9
$TRACEWID
 40
1.0
  9
$TEXTSTYLE
  7
Standard
  9
$CLAYER
  8
0
  9
$CELTYPE
  6
ByLayer
  9
$CECOLOR
 62
   256
  9
$CELTSCALE
 40
1.0
  9
$DISPSILH
 70
     0
  9
$DIMSCALE
 40
1.0
  9
$DIMASZ
 40
3.5
  9
$DIMEXO
 40
1.0
  9
$DIMDLI
 40
3.75
  9
$DIMRND
 40
0.0
  9
$DIMDLE
 40
0.0
  9
$DIMEXE
 40
1.0
  9
$DIMTP
 40
0.0
  9
$DIMTM
 40
0.0
  9
$DIMTXT
 40
3.5
  9
$DIMCEN
 40
2.5
  9
$DIMTSZ
 40
0.0
  9
$DIMTOL
 70
     0
  9
$DIMLIM
 70
     0
  9
$DIMTIH
 70
     1
  9
$DIMTOH
 70
     1
  9
$DIMSE1
 70
     0
  9
$DIMSE2
 70
     0
  9
$DIMTAD
 70
     1
  9
$DIMZIN
 70
     0
  9
$DIMBLK
  1

  9
$DIMASO
 70
     1
  9
$DIMSHO
 70
     1
  9
$DIMPOST
  1

  9
$DIMAPOST
  1

  9
$DIMALT
 70
     0
  9
$DIMALTD
 70
     3
  9
$DIMALTF
 40
0.0393700787
  9
$DIMLFAC
 40
1.0
  9
$DIMTOFL
 70
     1
  9
$DIMTVP
 40
0.0
  9
$DIMTIX
 70
     0
  9
$DIMSOXD
 70
     0
  9
$DIMSAH
 70
     0
  9
$DIMBLK1
  1

  9
$DIMBLK2
  1

  9
$DIMSTYLE
  2
ISO-25
  9
$DIMCLRD
 70
     0
  9
$DIMCLRE
 70
     0
  9
$DIMCLRT
 70
     0
  9
$DIMTFAC
 40
1.0
  9
$DIMGAP
 40
1.524
  9
$DIMJUST
 70
     0
  9
$DIMSD1
 70
     0
  9
$DIMSD2
 70
     0
  9
$DIMTOLJ
 70
     0
  9
$DIMTZIN
 70
     0
  9
$DIMALTZ
 70
     0
  9
$DIMALTTZ
 70
     0
  9
$DIMUPT
 70
     0
  9
$DIMDEC
 70
     2
  9
$DIMTDEC
 70
     2
  9
$DIMALTU
 70
     2
  9
$DIMALTTD
 70
     3
  9
$DIMTXSTY
  7
Standard
  9
$DIMAUNIT
 70
     0
  9
$DIMADEC
 70
     2
  9
$DIMALTRND
 40
0.0
  9
$DIMAZIN
 70
     0
  9
$DIMDSEP
 70
    44
  9
$DIMATFIT
 70
     3
  9
$DIMFRAC
 70
     0
  9
$DIMLDRBLK
  1

  9
$DIMLUNIT
 70
     2
  9
$DIMLWD
 70
    -2
  9
$DIMLWE
 70
    -2
  9
$DIMTMOVE
 70
     0
  9
$LUNITS
 70
     2
  9
$LUPREC
 70
     2
  9
$SKETCHINC
 40
1.0
  9
$FILLETRAD
 40
10.0
  9
$AUNITS
 70
     0
  9
$AUPREC
 70
     2
  9
$MENU
  1
.
  9
$ELEVATION
 40
0.0
  9
$PELEVATION
 40
0.0
  9
$THICKNESS
 40
0.0
  9
$LIMCHECK
 70
     0
  9
$CHAMFERA
 40
0.0
  9
$CHAMFERB
 40
0.0
  9
$CHAMFERC
 40
0.0
  9
$CHAMFERD
 40
0.0
  9
$SKPOLY
 70
     0
  9
$TDCREATE
 40
2460559.625944155
  9
$TDUCREATE
 40
2460559.500944155
  9
$TDUPDATE
 40
2460559.625944456
  9
$TDUUPDATE
 40
2460559.500944456
  9
$TDINDWG
 40
0.0000000116
  9
$TDUSRTIMER
 40
0.0000000116
  9
$USRTIMER
 70
     1
  9
$ANGBASE
 50
0.0
  9
$ANGDIR
 70
     0
  9
$PDMODE
 70
     0
  9
$PDSIZE
 40
-1.0
  9
$PLINEWID
 40
0.0
  9
$SPLFRAME
 70
     0
  9
$SPLINETYPE
 70
     6
  9
$SPLINESEGS
 70
     8
  9
$HANDSEED
  5
EE
  9
$SURFTAB1
 70
     6
  9
$SURFTAB2
 70
     6
  9
$SURFTYPE
 70
     6
  9
$SURFU
 70
     6
  9
$SURFV
 70
     6
  9
$UCSBASE
  2

  9
$UCSNAME
  2

  9
$UCSORG
 10
0.0
 20
0.0
 30
0.0
  9
$UCSXDIR
 10
1.0
 20
0.0
 30
0.0
  9
$UCSYDIR
 10
0.0
 20
1.0
 30
0.0
  9
$UCSORTHOREF
  2

  9
$UCSORTHOVIEW
 70
     0
  9
$UCSORGTOP
 10
0.0
 20
0.0
 30
0.0
  9
$UCSORGBOTTOM
 10
0.0
 20
0.0
 30
0.0
  9
$UCSORGLEFT
 10
0.0
 20
0.0
 30
0.0
  9
$UCSORGRIGHT
 10
0.0
 20
0.0
 30
0.0
  9
$UCSORGFRONT
 10
0.0
 20
0.0
 30
0.0
  9
$UCSORGBACK
 10
0.0
 20
0.0
 30
0.0
  9
$PUCSBASE
  2

  9
$PUCSNAME
  2

  9
$PUCSORG
 10
0.0
 20
0.0
 30
0.0
  9
$PUCSXDIR
 10
1.0
 20
0.0
 30
0.0
  9
$PUCSYDIR
 10
0.0
 20
1.0
 30
0.0
  9
$PUCSORTHOREF
  2

  9
$PUCSORTHOVIEW
 70
     0
  9
$PUCSORGTOP
 10
0.0
 20
0.0
 30
0.0
  9
$PUCSORGBOTTOM
 10
0.0
 20
0.0
 30
0.0
  9
$PUCSORGLEFT
 10
0.0
 20
0.0
 30
0.0
  9
$PUCSORGRIGHT
 10
0.0
 20
0.0
 30
0.0
  9
$PUCSORGFRONT
 10
0.0
 20
0.0
 30
0.0
  9
$PUCSORGBACK
 10
0.0
 20
0.0
 30
0.0
  9
$USERI1
 70
     0
  9
$USERI2
 70
     0
  9
$USERI3
 70
     0
  9
$USERI4
 70
     0
  9
$USERI5
 70
     0
  9
$USERR1
 40
0.0
  9
$USERR2
 40
0.0
  9
$USERR3
 40
0.0
  9
$USERR4
 40
0.0
  9
$USERR5
 40
0.0
  9
$WORLDVIEW
 70
     1
  9
$SHADEDGE
 70
     3
  9
$SHADEDIF
 70
    70
  9
$TILEMODE
 70
     1
  9
$MAXACTVP
 70
    64
  9
$PINSBASE
 10
0.0
 20
0.0
 30
0.0
  9
$PLIMCHECK
 70
     0
  9
$PEXTMIN
 10
1.0000000000E+20
 20
1.0000000000E+20
 30
1.0000000000E+20
  9
$PEXTMAX
 10
-1.0000000000E+20
 20
-1.0000000000E+20
 30
-1.0000000000E+20
  9
$PLIMMIN
 10
0.0
 20
0.0
  9
$PLIMMAX
 10
420.0
 20
297.0
  9
$UNITMODE
 70
     0
  9
$VISRETAIN
 70
     1
  9
$PLINEGEN
 70
     0
  9
$PSLTSCALE
 70
     1
  9
$TREEDEPTH
 70
  3020
  9
$CMLSTYLE
  2
Standard
  9
$CMLJUST
 70
     0
  9
$CMLSCALE
 40
20.0
  9
$PROXYGRAPHICS
 70
     1
  9
$MEASUREMENT
 70
     1
  9
$CELWEIGHT
370
    -1
  9
$ENDCAPS
280
     0
  9
$JOINSTYLE
280
     0
  9
$LWDISPLAY
290
     1
  9
$INSUNITS
 70
     4
  9
$HYPERLINKBASE
  1

  9
$STYLESHEET
  1

  9
$XEDIT
290
     1
  9
$CEPSNTYPE
380
     0
  9
$PSTYLEMODE
290
     1
  9
$FINGERPRINTGUID
  2
{58f057ad-04c4-4a40-a727-541b8b94d39c}
  9
$VERSIONGUID
  2
{FAEB1C32-E019-11D5-929B-00C0DF256EC4}
  9
$EXTNAMES
290
     1
  9
$PSVPSCALE
 40
0.0
  9
$OLESTARTUP
290
     0
  0
ENDSEC
  0
SECTION
  2
CLASSES
  0
CLASS
  1
ACDBDICTIONARYWDFLT
  2
AcDbDictionaryWithDefault
  3
ObjectDBX Classes
 90
        0
280
     0
281
     0
  0
CLASS
  1
VISUALSTYLE
  2
AcDbVisualStyle
  3
ObjectDBX Classes
 90
     4095
280
     0
281
     0
  0
CLASS
  1
MATERIAL
  2
AcDbMaterial
  3
ObjectDBX Classes
 90
     1153
280
     0
281
     0
  0
CLASS
  1
SCALE
  2
AcDbScale
  3
ObjectDBX Classes
 90
     1153
280
     0
281
     0
  0
CLASS
  1
TABLESTYLE
  2
AcDbTableStyle
  3
ObjectDBX Classes
 90
     4095
280
     0
281
     0
  0
CLASS
  1
MLEADERSTYLE
  2
AcDbMLeaderStyle
  3
ACDB_MLEADERSTYLE_CLASS
 90
     4095
280
     0
281
     0
  0
CLASS
  1
SUN
  2
AcDbSun
  3
SCENEOE
 90
     1153
280
     0
281
     0
  0
CLASS
  1
ACDBPLACEHOLDER
  2
AcDbPlaceHolder
  3
ObjectDBX Classes
 90
        0
280
     0
281
     0
  0
CLASS
  1
LAYOUT
  2
AcDbLayout
  3
ObjectDBX Classes
 90
        0
280
     0
281
     0
  0
ENDSEC
  0
SECTION
  2
TABLES
  0
TABLE
  2
VPORT
  5
8
330
0
100
AcDbSymbolTable
 70
     1
  0
VPORT
  5
29
330
8
100
AcDbSymbolTableRecord
100
AcDbViewportTableRecord
  2
*Active
 70
     0
 10
0.0
 20
0.0
 11
1.0
 21
1.0
 12
139.7
 22
107.95
 13
0.0
 23
0.0
 14
10.0
 24
10.0
 15
10.0
 25
10.0
 16
0.0
 26
0.0
 36
1.0
 17
0.0
 27
0.0
 37
0.0
 40
215.9
 41
1.2941176471
 42
50.0
 43
0.0
 44
0.0
 50
0.0
 51
0.0
 71
     0
 72
  2000
 73
     1
 74
     3
 75
     0
 76
     0
 77
     0
 78
     0
281
     0
 65
     1
110
0.0
120
0.0
130
0.0
111
1.0
121
0.0
131
0.0
112
0.0
122
1.0
132
0.0
 79
     0
146
0.0
  0
ENDTAB
  0
TABLE
  2
LTYPE
  5
5
330
0
100
AcDbSymbolTable
 70
     6
  0
LTYPE
  5
14
330
5
100
AcDbSymbolTableRecord
100
AcDbLinetypeTableRecord
  2
ByBlock
 70
     0
  3

 72
    65
 73
     0
 40
0.0
  0
LTYPE
  5
15
330
5
100
AcDbSymbolTableRecord
100
AcDbLinetypeTableRecord
  2
ByLayer
 70
     0
  3

 72
    65
 73
     0
 40
0.0
  0
LTYPE
  5
16
330
5
100
AcDbSymbolTableRecord
100
AcDbLinetypeTableRecord
  2
Continuous
 70
     0
  3
Solid line
 72
    65
 73
     0
 40
0.0
  0
LTYPE
  5
6E
330
5
100
AcDbSymbolTableRecord
100
AcDbLinetypeTableRecord
  2
HIDDEN
 70
     0
  3
Hidden __ __ __ __ __ __ __ __ __ __ __ __ __ __
 72
    65
 73
     2
 40
1.905
 49
1.27
 74
     0
 49
-0.635
 74
     0
  0
LTYPE
  5
6F
330
5
100
AcDbSymbolTableRecord
100
AcDbLinetypeTableRecord
  2
PHANTOM
 70
     0
  3
Phantom ______  __  __  ______  __  __  ______
 72
    65
 73
     6
 40
12.7
 49
6.35
 74
     0
 49
-1.27
 74
     0
 49
1.27
 74
     0
 49
-1.27
 74
     0
 49
1.27
 74
     0
 49
-1.27
 74
     0
  0
LTYPE
  5
70
330
5
100
AcDbSymbolTableRecord
100
AcDbLinetypeTableRecord
  2
CENTER
 70
     0
  3
Center ____ _ ____ _ ____ _ ____ _ ____ _ ____
 72
    65
 73
     4
 40
10.16
 49
6.35
 74
     0
 49
-1.27
 74
     0
 49
1.27
 74
     0
 49
-1.27
 74
     0
  0
LTYPE
  5
71
330
5
100
AcDbSymbolTableRecord
100
AcDbLinetypeTableRecord
  2
CENTERX2
 70
     0
  3
Center (2x) ________  __  ________  __  _____
 72
    65
 73
     4
 40
20.32
 49
12.7
 74
     0
 49
-2.54
 74
     0
 49
2.54
 74
     0
 49
-2.54
 74
     0
  0
LTYPE
  5
72
330
5
100
AcDbSymbolTableRecord
100
AcDbLinetypeTableRecord
  2
DOT2
 70
     0
  3
Dot (.5x) ........................................
 72
    65
 73
     2
 40
0.635
 49
0.0
 74
     0
 49
-0.635
 74
     0
  0
ENDTAB
  0
TABLE
  2
LAYER
  5
2
330
0
100
AcDbSymbolTable
 70
    17
  0
LAYER
  5
10
330
2
100
AcDbSymbolTableRecord
100
AcDbLayerTableRecord
  2
0
 70
     0
 62
     7
  6
Continuous
370
    -3
390
F
  0
LAYER
  5
73
330
2
100
AcDbSymbolTableRecord
100
AcDbLayerTableRecord
  2
FORMAT
 70
     0
 62
     7
  6
Continuous
370
    -3
390
F
  0
LAYER
  5
74
330
2
100
AcDbSymbolTableRecord
100
AcDbLayerTableRecord
  2
YARDIMCI_GEOMETRI
 70
     0
 62
    -6
  6
Continuous
290
     0
370
    -3
390
F
  0
LAYER
  5
75
330
2
100
AcDbSymbolTableRecord
100
AcDbLayerTableRecord
  2
SAYFA_CERCEVESI
 70
     0
 62
     7
  6
Continuous
370
    25
390
F
  0
LAYER
  5
76
330
2
100
AcDbSymbolTableRecord
100
AcDbLayerTableRecord
  2
ANTET
 70
     0
 62
     7
  6
Continuous
370
    -3
390
F
  0
LAYER
  5
77
330
2
100
AcDbSymbolTableRecord
100
AcDbLayerTableRecord
  2
OLCU
 70
     0
 62
   150
  6
Continuous
370
    -3
390
F
  0
LAYER
  5
78
330
2
100
AcDbSymbolTableRecord
100
AcDbLayerTableRecord
  2
METIN
 70
     0
 62
    96
  6
Continuous
370
    -3
390
F
  0
LAYER
  5
79
330
2
100
AcDbSymbolTableRecord
100
AcDbLayerTableRecord
  2
BALON
 70
     0
 62
     5
  6
Continuous
370
    -3
390
F
  0
LAYER
  5
7A
330
2
100
AcDbSymbolTableRecord
100
AcDbLayerTableRecord
  2
VURGU
 70
     0
 62
     7
  6
Continuous
370
    -3
390
F
  0
LAYER
  5
7B
330
2
100
AcDbSymbolTableRecord
100
AcDbLayerTableRecord
  2
SILIK
 70
     0
 62
     7
  6
Continuous
370
    -3
390
F
  0
LAYER
  5
7C
330
2
100
AcDbSymbolTableRecord
100
AcDbLayerTableRecord
  2
MODEL
 70
     0
 62
     7
  6
Continuous
370
    -3
390
F
  0
LAYER
  5
7D
330
2
100
AcDbSymbolTableRecord
100
AcDbLayerTableRecord
  2
DETAYLANDıRMA
 70
     0
 62
   190
  6
Continuous
370
    -3
390
F
  0
LAYER
  5
7E
330
2
100
AcDbSymbolTableRecord
100
AcDbLayerTableRecord
  2
TOLERANS
 70
     0
 62
   230
  6
Continuous
370
    -3
390
F
  0
LAYER
  5
7F
330
2
100
AcDbSymbolTableRecord
100
AcDbLayerTableRecord
  2
MERKEZ_CIZGILERI
 70
     0
 62
    30
  6
Continuous
370
    -3
390
F
  0
LAYER
  5
80
330
2
100
AcDbSymbolTableRecord
100
AcDbLayerTableRecord
  2
KESIT-DETAY_CIZGILERI
 70
     0
 62
     7
  6
Continuous
370
    -3
390
F
  0
LAYER
  5
81
330
2
100
AcDbSymbolTableRecord
100
AcDbLayerTableRecord
  2
\U+041E\U+0421\U+0415\U+0412\U+042B\U+0415
 70
     0
 62
     7
  6
Continuous
370
    -3
390
F
  0
LAYER
  5
82
330
2
100
AcDbSymbolTableRecord
100
AcDbLayerTableRecord
  2
\U+0412\U+041E\U+0414\U+042F\U+041D\U+042B\U+0415_\U+0417\U+041D\U+0410\U+041A\U+0418
 70
     0
 62
    11
  6
Continuous
370
    -3
390
F
  0
ENDTAB
  0
TABLE
  2
STYLE
  5
3
330
0
100
AcDbSymbolTable
 70
     1
  0
STYLE
  5
11
330
3
100
AcDbSymbolTableRecord
100
AcDbTextStyleTableRecord
  2
Standard
 70
     0
 40
0.0
 41
1.0
 50
0.0
 71
     0
 42
3.5
  3
txt
  4

  0
ENDTAB
  0
TABLE
  2
VIEW
  5
6
330
0
100
AcDbSymbolTable
 70
     0
  0
ENDTAB
  0
TABLE
  2
UCS
  5
7
330
0
100
AcDbSymbolTable
 70
     0
  0
ENDTAB
  0
TABLE
  2
APPID
  5
9
330
0
100
AcDbSymbolTable
 70
     1
  0
APPID
  5
12
330
9
100
AcDbSymbolTableRecord
100
AcDbRegAppTableRecord
  2
ACAD
 70
     0
  0
ENDTAB
  0
TABLE
  2
DIMSTYLE
  5
A
330
0
100
AcDbSymbolTable
 70
     1
100
AcDbDimStyleTable
  0
DIMSTYLE
105
27
330
A
100
AcDbSymbolTableRecord
100
AcDbDimStyleTableRecord
  2
ISO-25
 70
     0
 41
2.5
 42
0.625
 43
3.75
 44
1.25
 73
     0
 74
     0
 77
     1
 78
     8
140
2.5
141
2.5
143
0.0393700787
147
0.625
171
     3
172
     1
178
     0
271
     2
272
     2
274
     3
278
    44
283
     0
284
     8
340
11
  0
ENDTAB
  0
TABLE
  2
BLOCK_RECORD
  5
1
330
0
100
AcDbSymbolTable
 70
     2
  0
BLOCK_RECORD
  5
1F
330
1
100
AcDbSymbolTableRecord
100
AcDbBlockTableRecord
  2
*Model_Space
340
22
  0
BLOCK_RECORD
  5
1B
330
1
100
AcDbSymbolTableRecord
100
AcDbBlockTableRecord
  2
*Paper_Space
340
1E
  0
BLOCK_RECORD
  5
23
330
1
100
AcDbSymbolTableRecord
100
AcDbBlockTableRecord
  2
*Paper_Space0
340
26
  0
BLOCK_RECORD
  5
88
330
1
100
AcDbSymbolTableRecord
100
AcDbBlockTableRecord
  2
SW_CENTERMARKSYMBOL_0
340
0
102
{BLKREFS
331
93
102
}
  0
ENDTAB
  0
ENDSEC
  0
SECTION
  2
BLOCKS
  0
BLOCK
  5
20
330
1F
100
AcDbEntity
  8
0
100
AcDbBlockBegin
  2
*Model_Space
 70
     0
 10
0.0
 20
0.0
 30
0.0
  3
*Model_Space
  1

  0
ENDBLK
  5
21
330
1F
100
AcDbEntity
  8
0
100
AcDbBlockEnd
  0
BLOCK
  5
1C
330
1B
100
AcDbEntity
 67
     1
  8
0
100
AcDbBlockBegin
  2
*Paper_Space
 70
     0
 10
0.0
 20
0.0
 30
0.0
  3
*Paper_Space
  1

  0
ENDBLK
  5
1D
330
1B
100
AcDbEntity
 67
     1
  8
0
100
AcDbBlockEnd
  0
BLOCK
  5
24
330
23
100
AcDbEntity
  8
0
100
AcDbBlockBegin
  2
*Paper_Space0
 70
     0
 10
0.0
 20
0.0
 30
0.0
  3
*Paper_Space0
  1

  0
ENDBLK
  5
25
330
23
100
AcDbEntity
  8
0
100
AcDbBlockEnd
  0
BLOCK
  5
89
330
88
100
AcDbEntity
  8
0
100
AcDbBlockBegin
  2
SW_CENTERMARKSYMBOL_0
 70
     0
 10
0.0
 20
0.0
 30
0.0
  3
SW_CENTERMARKSYMBOL_0
  1

  0
LINE
  5
8B
330
88
100
AcDbEntity
  8
FORMAT
 62
     0
100
AcDbLine
 10
0.0
 20
0.0
 30
0.0
 11
0.0
 21
2.5
 31
0.0
  0
LINE
  5
8C
330
88
100
AcDbEntity
  8
FORMAT
 62
     0
100
AcDbLine
 10
0.0
 20
0.0
 30
0.0
 11
-2.5
 21
0.0
 31
0.0
  0
LINE
  5
8D
330
88
100
AcDbEntity
  8
FORMAT
 62
     0
100
AcDbLine
 10
0.0
 20
0.0
 30
0.0
 11
0.0
 21
-2.5
 31
0.0
  0
LINE
  5
8E
330
88
100
AcDbEntity
  8
FORMAT
 62
     0
100
AcDbLine
 10
0.0
 20
0.0
 30
0.0
 11
2.5
 21
0.0
 31
0.0
  0
LINE
  5
8F
330
88
100
AcDbEntity
  8
FORMAT
 62
     0
100
AcDbLine
 10
0.0
 20
5.0
 30
0.0
 11
0.0
 21
57.5
 31
0.0
  0
LINE
  5
90
330
88
100
AcDbEntity
  8
FORMAT
 62
     0
100
AcDbLine
 10
-5.0
 20
0.0
 30
0.0
 11
-57.5
 21
0.0
 31
0.0
  0
LINE
  5
91
330
88
100
AcDbEntity
  8
FORMAT
 62
     0
100
AcDbLine
 10
0.0
 20
-5.0
 30
0.0
 11
0.0
 21
-57.5
 31
0.0
  0
LINE
  5
92
330
88
100
AcDbEntity
  8
FORMAT
 62
     0
100
AcDbLine
 10
5.0
 20
0.0
 30
0.0
 11
57.5
 21
0.0
 31
0.0
  0
ENDBLK
  5
8A
330
88
100
AcDbEntity
  8
0
100
AcDbBlockEnd
  0
ENDSEC
  0
SECTION
  2
ENTITIES
  0
CIRCLE
  5
83
330
1F
100
AcDbEntity
  8
0
  6
Continuous
 62
     7
370
    25
100
AcDbCircle
 10
139.395004093
 20
107.5851680021
 30
0.0
 40
55.0
  0
CIRCLE
  5
84
330
1F
100
AcDbEntity
  8
0
  6
Continuous
 62
     7
370
    25
100
AcDbCircle
 10
139.395004093
 20
107.5851680021
 30
0.0
 40
44.99999999999999
  0
CIRCLE
  5
85
330
1F
100
AcDbEntity
  8
0
  6
Continuous
 62
     7
370
    25
100
AcDbCircle
 10
139.395004093
 20
107.5851680021
 30
0.0
 40
44.77980068837931
  0
CIRCLE
  5
86
330
1F
100
AcDbEntity
  8
0
  6
Continuous
 62
     7
370
    25
100
AcDbCircle
 10
139.395004093
 20
107.5851680021
 30
0.0
 40
30.92019931162069
  0
CIRCLE
  5
87
330
1F
100
AcDbEntity
  8
0
  6
Continuous
 62
     7
370
    25
100
AcDbCircle
 10
139.395004093
 20
107.5851680021
 30
0.0
 40
30.7
  0
INSERT
  5
93
330
1F
100
AcDbEntity
  8
FORMAT
 62
     7
100
AcDbBlockReference
  2
SW_CENTERMARKSYMBOL_0
 10
139.395004093
 20
107.5851680021
 30
0.0
  0
ARC
  5
94
330
1F
100
AcDbEntity
  8
0
  6
Continuous
 62
     7
370
    25
100
AcDbCircle
 10
-113.0007069724
 20
160.5851680021
 30
0.0
 40
2.0
100
AcDbArc
 50
72.9325951815
 51
90.0
  0
ARC
  5
95
330
1F
100
AcDbEntity
  8
0
  6
Continuous
 62
     7
370
    25
100
AcDbCircle
 10
-113.0007069724
 20
54.5851680021
 30
0.0
 40
2.0
100
AcDbArc
 50
270.0
 51
287.0674048185
  0
LINE
  5
96
330
1F
100
AcDbEntity
  8
0
  6
Continuous
 62
     7
370
    25
100
AcDbLine
 10
-113.0007069724
 20
162.5851680021
 30
0.0
 11
-199.7006021514
 21
162.5851680021
 31
0.0
  0
LINE
  5
97
330
1F
100
AcDbEntity
  8
0
  6
Continuous
 62
     7
370
    25
100
AcDbLine
 10
-199.7006021514
 20
52.5851680021
 30
0.0
 11
-113.0007069724
 21
52.5851680021
 31
0.0
  0
LINE
  5
98
330
1F
100
AcDbEntity
  8
0
  6
Continuous
 62
     7
370
    25
100
AcDbLine
 10
-112.4137139054
 20
52.6732477268
 30
0.0
 11
-55.9874903974
 21
69.9970882775
 31
0.0
  0
LINE
  5
99
330
1F
100
AcDbEntity
  8
0
  6
Continuous
 62
     7
370
    25
100
AcDbLine
 10
-55.9874903974
 20
145.1732477268
 30
0.0
 11
-112.4137139054
 21
162.4970882775
 31
0.0
  0
ARC
  5
9A
330
1F
100
AcDbEntity
  8
0
  6
Continuous
 62
     7
370
    25
100
AcDbCircle
 10
-55.4004973304
 20
147.0851680021
 30
0.0
 40
2.000000000000044
100
AcDbArc
 50
252.9325951815
 51
270.0
  0
ARC
  5
9B
330
1F
100
AcDbEntity
  8
0
  6
Continuous
 62
     7
370
    25
100
AcDbCircle
 10
-55.4004973304
 20
68.0851680021
 30
0.0
 40
2.000000000000017
100
AcDbArc
 50
90.0
 51
107.0674048185
  0
LINE
  5
9C
330
1F
100
AcDbEntity
  8
0
  6
Continuous
 62
     7
370
    25
100
AcDbLine
 10
18.2993978486
 20
145.0851680021
 30
0.0
 11
-55.4004973304
 21
145.0851680021
 31
0.0
  0
LINE
  5
9D
330
1F
100
AcDbEntity
  8
0
  6
Continuous
 62
     7
370
    25
100
AcDbLine
 10
-55.4004973304
 20
70.0851680021
 30
0.0
 11
18.2993978486
 21
70.0851680021
 31
0.0
  0
LINE
  5
9E
330
1F
100
AcDbEntity
  8
0
  6
Continuous
 62
     7
370
    25
100
AcDbLine
 10
-199.7006021514
 20
162.5851680021
 30
0.0
 11
-199.7006021514
 21
52.5851680021
 31
0.0
  0
LINE
  5
9F
330
1F
100
AcDbEntity
  8
0
  6
Continuous
 62
     7
370
    25
100
AcDbLine
 10
18.2993978486
 20
145.0851680021
 30
0.0
 11
18.2993978486
 21
70.0851680021
 31
0.0
  0
LINE
  5
A0
330
1F
100
AcDbEntity
  8
0
  6
Continuous
 62
     1
370
    25
100
AcDbLine
 10
-112.4137139054
 20
162.4970882775
 30
0.0
 11
-112.4137139054
 21
52.6732477268
 31
0.0
  0
LINE
  5
A1
330
1F
100
AcDbEntity
  8
0
  6
Continuous
 62
     1
370
    25
100
AcDbLine
 10
-113.0007069724
 20
162.5851680021
 30
0.0
 11
-113.0007069724
 21
52.5851680021
 31
0.0
  0
LINE
  5
A2
330
1F
100
AcDbEntity
  8
0
  6
Continuous
 62
     1
370
    25
100
AcDbLine
 10
-55.9874903974
 20
145.1732477268
 30
0.0
 11
-55.9874903974
 21
69.9970882775
 31
0.0
  0
LINE
  5
A3
330
1F
100
AcDbEntity
  8
0
  6
Continuous
 62
     1
370
    25
100
AcDbLine
 10
-55.4004973304
 20
145.0851680021
 30
0.0
 11
-55.4004973304
 21
70.0851680021
 31
0.0
  0
ARC
  5
A4
330
1F
100
AcDbEntity
  8
0
  6
Continuous
 62
     7
370
    25
100
AcDbCircle
 10
361.3248212331
 20
54.5851680021
 30
0.0
 40
2.0
100
AcDbArc
 50
252.9325951815
 51
270.0
  0
ARC
  5
A5
330
1F
100
AcDbEntity
  8
0
  6
Continuous
 62
     7
370
    25
100
AcDbCircle
 10
361.3248212331
 20
160.5851680021
 30
0.0
 40
2.0
100
AcDbArc
 50
90.0
 51
107.0674048185
  0
LINE
  5
A6
330
1F
100
AcDbEntity
  8
0
  6
Continuous
 62
     7
370
    25
100
AcDbLine
 10
361.3248212331
 20
52.5851680021
 30
0.0
 11
448.0247164121
 21
52.5851680021
 31
0.0
  0
LINE
  5
A7
330
1F
100
AcDbEntity
  8
0
  6
Continuous
 62
     7
370
    25
100
AcDbLine
 10
448.0247164121
 20
162.5851680021
 30
0.0
 11
361.3248212331
 21
162.5851680021
 31
0.0
  0
LINE
  5
A8
330
1F
100
AcDbEntity
  8
0
  6
Continuous
 62
     7
370
    25
100
AcDbLine
 10
360.7378281661
 20
162.4970882775
 30
0.0
 11
304.3116046581
 21
145.1732477268
 31
0.0
  0
LINE
  5
A9
330
1F
100
AcDbEntity
  8
0
  6
Continuous
 62
     7
370
    25
100
AcDbLine
 10
304.3116046581
 20
69.9970882775
 30
0.0
 11
360.7378281661
 21
52.6732477268
 31
0.0
  0
ARC
  5
AA
330
1F
100
AcDbEntity
  8
0
  6
Continuous
 62
     7
370
    25
100
AcDbCircle
 10
303.7246115911
 20
68.0851680021
 30
0.0
 40
2.000000000000001
100
AcDbArc
 50
72.9325951815
 51
90.0
  0
ARC
  5
AB
330
1F
100
AcDbEntity
  8
0
  6
Continuous
 62
     7
370
    25
100
AcDbCircle
 10
303.7246115911
 20
147.0851680021
 30
0.0
 40
2.000000000000028
100
AcDbArc
 50
270.0
 51
287.0674048185
  0
LINE
  5
AC
330
1F
100
AcDbEntity
  8
0
  6
Continuous
 62
     7
370
    25
100
AcDbLine
 10
230.0247164121
 20
70.0851680021
 30
0.0
 11
303.7246115911
 21
70.0851680021
 31
0.0
  0
LINE
  5
AD
330
1F
100
AcDbEntity
  8
0
  6
Continuous
 62
     7
370
    25
100
AcDbLine
 10
303.7246115911
 20
145.0851680021
 30
0.0
 11
230.0247164121
 21
145.0851680021
 31
0.0
  0
LINE
  5
AE
330
1F
100
AcDbEntity
  8
0
  6
Continuous
 62
     7
370
    25
100
AcDbLine
 10
448.0247164121
 20
107.5851680021
 30
0.0
 11
448.0247164121
 21
162.5851680021
 31
0.0
  0
LINE
  5
AF
330
1F
100
AcDbEntity
  8
0
  6
Continuous
 62
     7
370
    25
100
AcDbLine
 10
448.0247164121
 20
52.5851680021
 30
0.0
 11
448.0247164121
 21
107.5851680021
 31
0.0
  0
LINE
  5
B0
330
1F
100
AcDbEntity
  8
0
  6
Continuous
 62
     7
370
    25
100
AcDbLine
 10
230.0247164121
 20
107.5851680021
 30
0.0
 11
230.0247164121
 21
145.0851680021
 31
0.0
  0
LINE
  5
B1
330
1F
100
AcDbEntity
  8
0
  6
Continuous
 62
     7
370
    25
100
AcDbLine
 10
230.0247164121
 20
70.0851680021
 30
0.0
 11
230.0247164121
 21
107.5851680021
 31
0.0
  0
LINE
  5
B2
330
1F
100
AcDbEntity
  8
0
  6
Continuous
 62
     1
370
    25
100
AcDbLine
 10
360.7378281661
 20
107.5851680021
 30
0.0
 11
360.7378281661
 21
162.4970882775
 31
0.0
  0
LINE
  5
B3
330
1F
100
AcDbEntity
  8
0
  6
Continuous
 62
     1
370
    25
100
AcDbLine
 10
360.7378281661
 20
52.6732477268
 30
0.0
 11
360.7378281661
 21
107.5851680021
 31
0.0
  0
LINE
  5
B4
330
1F
100
AcDbEntity
  8
0
  6
Continuous
 62
     1
370
    25
100
AcDbLine
 10
361.3248212331
 20
107.5851680021
 30
0.0
 11
361.3248212331
 21
162.5851680021
 31
0.0
  0
LINE
  5
B5
330
1F
100
AcDbEntity
  8
0
  6
Continuous
 62
     1
370
    25
100
AcDbLine
 10
361.3248212331
 20
52.5851680021
 30
0.0
 11
361.3248212331
 21
107.5851680021
 31
0.0
  0
LINE
  5
B6
330
1F
100
AcDbEntity
  8
0
  6
Continuous
 62
     1
370
    25
100
AcDbLine
 10
304.3116046581
 20
107.5851680021
 30
0.0
 11
304.3116046581
 21
145.1732477268
 31
0.0
  0
LINE
  5
B7
330
1F
100
AcDbEntity
  8
0
  6
Continuous
 62
     1
370
    25
100
AcDbLine
 10
304.3116046581
 20
69.9970882775
 30
0.0
 11
304.3116046581
 21
107.5851680021
 31
0.0
  0
LINE
  5
B8
330
1F
100
AcDbEntity
  8
0
  6
Continuous
 62
     1
370
    25
100
AcDbLine
 10
303.7246115911
 20
107.5851680021
 30
0.0
 11
303.7246115911
 21
145.0851680021
 31
0.0
  0
LINE
  5
B9
330
1F
100
AcDbEntity
  8
0
  6
Continuous
 62
     1
370
    25
100
AcDbLine
 10
303.7246115911
 20
70.0851680021
 30
0.0
 11
303.7246115911
 21
107.5851680021
 31
0.0
  0
ARC
  5
BA
330
1F
100
AcDbEntity
  8
0
  6
Continuous
 62
     7
370
    25
100
AcDbCircle
 10
192.395004093
 20
352.485929625
 30
0.0
 40
2.0
100
AcDbArc
 50
342.9325951815
 51
0.0
  0
ARC
  5
BB
330
1F
100
AcDbEntity
  8
0
  6
Continuous
 62
     7
370
    25
100
AcDbCircle
 10
86.395004093
 20
352.485929625
 30
0.0
 40
2.0
100
AcDbArc
 50
180.0
 51
197.0674048185
  0
LINE
  5
BC
330
1F
100
AcDbEntity
  8
0
  6
Continuous
 62
     7
370
    25
100
AcDbLine
 10
194.395004093
 20
352.485929625
 30
0.0
 11
194.395004093
 21
439.185824804
 31
0.0
  0
LINE
  5
BD
330
1F
100
AcDbEntity
  8
0
  6
Continuous
 62
     7
370
    25
100
AcDbLine
 10
84.395004093
 20
439.185824804
 30
0.0
 11
84.395004093
 21
352.485929625
 31
0.0
  0
LINE
  5
BE
330
1F
100
AcDbEntity
  8
0
  6
Continuous
 62
     7
370
    25
100
AcDbLine
 10
84.4830838177
 20
351.898936558
 30
0.0
 11
101.8069243684
 21
295.47271305
 31
0.0
  0
LINE
  5
BF
330
1F
100
AcDbEntity
  8
0
  6
Continuous
 62
     7
370
    25
100
AcDbLine
 10
176.9830838177
 20
295.47271305
 30
0.0
 11
194.3069243684
 21
351.898936558
 31
0.0
  0
ARC
  5
C0
330
1F
100
AcDbEntity
  8
0
  6
Continuous
 62
     7
370
    25
100
AcDbCircle
 10
178.895004093
 20
294.885719983
 30
0.0
 40
2.000000000000007
100
AcDbArc
 50
162.9325951815
 51
180.0
  0
ARC
  5
C1
330
1F
100
AcDbEntity
  8
0
  6
Continuous
 62
     7
370
    25
100
AcDbCircle
 10
99.895004093
 20
294.885719983
 30
0.0
 40
2.000000000000034
100
AcDbArc
 50
0.0
 51
17.0674048185
  0
LINE
  5
C2
330
1F
100
AcDbEntity
  8
0
  6
Continuous
 62
     7
370
    25
100
AcDbLine
 10
176.895004093
 20
221.185824804
 30
0.0
 11
176.895004093
 21
294.885719983
 31
0.0
  0
LINE
  5
C3
330
1F
100
AcDbEntity
  8
0
  6
Continuous
 62
     7
370
    25
100
AcDbLine
 10
101.895004093
 20
294.885719983
 30
0.0
 11
101.895004093
 21
221.185824804
 31
0.0
  0
LINE
  5
C4
330
1F
100
AcDbEntity
  8
0
  6
Continuous
 62
     7
370
    25
100
AcDbLine
 10
194.395004093
 20
439.185824804
 30
0.0
 11
84.395004093
 21
439.185824804
 31
0.0
  0
LINE
  5
C5
330
1F
100
AcDbEntity
  8
0
  6
Continuous
 62
     7
370
    25
100
AcDbLine
 10
176.895004093
 20
221.185824804
 30
0.0
 11
101.895004093
 21
221.185824804
 31
0.0
  0
LINE
  5
C6
330
1F
100
AcDbEntity
  8
0
  6
Continuous
 62
     1
370
    25
100
AcDbLine
 10
194.3069243684
 20
351.898936558
 30
0.0
 11
84.4830838177
 21
351.898936558
 31
0.0
  0
LINE
  5
C7
330
1F
100
AcDbEntity
  8
0
  6
Continuous
 62
     1
370
    25
100
AcDbLine
 10
194.395004093
 20
352.485929625
 30
0.0
 11
84.395004093
 21
352.485929625
 31
0.0
  0
LINE
  5
C8
330
1F
100
AcDbEntity
  8
0
  6
Continuous
 62
     1
370
    25
100
AcDbLine
 10
176.9830838177
 20
295.47271305
 30
0.0
 11
101.8069243684
 21
295.47271305
 31
0.0
  0
LINE
  5
C9
330
1F
100
AcDbEntity
  8
0
  6
Continuous
 62
     1
370
    25
100
AcDbLine
 10
176.895004093
 20
294.885719983
 30
0.0
 11
101.895004093
 21
294.885719983
 31
0.0
  0
ARC
  5
CA
330
1F
100
AcDbEntity
  8
0
  6
Continuous
 62
     7
370
    25
100
AcDbCircle
 10
86.395004093
 20
-131.5001723454
 30
0.0
 40
2.0
100
AcDbArc
 50
162.9325951815
 51
180.0
  0
ARC
  5
CB
330
1F
100
AcDbEntity
  8
0
  6
Continuous
 62
     7
370
    25
100
AcDbCircle
 10
192.395004093
 20
-131.5001723454
 30
0.0
 40
2.0
100
AcDbArc
 50
0.0
 51
17.0674048185
  0
LINE
  5
CC
330
1F
100
AcDbEntity
  8
0
  6
Continuous
 62
     7
370
    25
100
AcDbLine
 10
84.395004093
 20
-131.5001723454
 30
0.0
 11
84.395004093
 21
-218.2000675244
 31
0.0
  0
LINE
  5
CD
330
1F
100
AcDbEntity
  8
0
  6
Continuous
 62
     7
370
    25
100
AcDbLine
 10
194.395004093
 20
-218.2000675244
 30
0.0
 11
194.395004093
 21
-131.5001723454
 31
0.0
  0
LINE
  5
CE
330
1F
100
AcDbEntity
  8
0
  6
Continuous
 62
     7
370
    25
100
AcDbLine
 10
194.3069243684
 20
-130.9131792784
 30
0.0
 11
176.9830838177
 21
-74.4869557704
 31
0.0
  0
LINE
  5
CF
330
1F
100
AcDbEntity
  8
0
  6
Continuous
 62
     7
370
    25
100
AcDbLine
 10
101.8069243684
 20
-74.4869557704
 30
0.0
 11
84.4830838177
 21
-130.9131792784
 31
0.0
  0
ARC
  5
D0
330
1F
100
AcDbEntity
  8
0
  6
Continuous
 62
     7
370
    25
100
AcDbCircle
 10
99.895004093
 20
-73.8999627034
 30
0.0
 40
2.000000000000017
100
AcDbArc
 50
342.9325951815
 51
0.0
  0
ARC
  5
D1
330
1F
100
AcDbEntity
  8
0
  6
Continuous
 62
     7
370
    25
100
AcDbCircle
 10
178.895004093
 20
-73.8999627034
 30
0.0
 40
2.0
100
AcDbArc
 50
180.0
 51
197.0674048185
  0
LINE
  5
D2
330
1F
100
AcDbEntity
  8
0
  6
Continuous
 62
     7
370
    25
100
AcDbLine
 10
101.895004093
 20
-0.2000675244
 30
0.0
 11
101.895004093
 21
-73.8999627034
 31
0.0
  0
LINE
  5
D3
330
1F
100
AcDbEntity
  8
0
  6
Continuous
 62
     7
370
    25
100
AcDbLine
 10
176.895004093
 20
-73.8999627034
 30
0.0
 11
176.895004093
 21
-0.2000675244
 31
0.0
  0
LINE
  5
D4
330
1F
100
AcDbEntity
  8
0
  6
Continuous
 62
     7
370
    25
100
AcDbLine
 10
84.395004093
 20
-218.2000675244
 30
0.0
 11
194.395004093
 21
-218.2000675244
 31
0.0
  0
LINE
  5
D5
330
1F
100
AcDbEntity
  8
0
  6
Continuous
 62
     7
370
    25
100
AcDbLine
 10
101.895004093
 20
-0.2000675244
 30
0.0
 11
176.895004093
 21
-0.2000675244
 31
0.0
  0
LINE
  5
D6
330
1F
100
AcDbEntity
  8
0
  6
Continuous
 62
     1
370
    25
100
AcDbLine
 10
84.4830838177
 20
-130.9131792784
 30
0.0
 11
194.3069243684
 21
-130.9131792784
 31
0.0
  0
LINE
  5
D7
330
1F
100
AcDbEntity
  8
0
  6
Continuous
 62
     1
370
    25
100
AcDbLine
 10
84.395004093
 20
-131.5001723454
 30
0.0
 11
194.395004093
 21
-131.5001723454
 31
0.0
  0
LINE
  5
D8
330
1F
100
AcDbEntity
  8
0
  6
Continuous
 62
     1
370
    25
100
AcDbLine
 10
101.8069243684
 20
-74.4869557704
 30
0.0
 11
176.9830838177
 21
-74.4869557704
 31
0.0
  0
LINE
  5
D9
330
1F
100
AcDbEntity
  8
0
  6
Continuous
 62
     1
370
    25
100
AcDbLine
 10
101.895004093
 20
-73.8999627034
 30
0.0
 11
176.895004093
 21
-73.8999627034
 31
0.0
  0
LINE
  5
DA
330
1F
100
AcDbEntity
  8
0
  6
Continuous
 62
     7
370
    25
100
AcDbLine
 10
351.8220367779
 20
-34.3272294357
 30
0.0
 11
290.5159529686
 21
1.0640194234
 31
0.0
  0
LINE
  5
DB
330
1F
100
AcDbEntity
  8
0
  6
Continuous
 62
     7
370
    25
100
AcDbLine
 10
235.5204226737
 20
-94.2013554384
 30
0.0
 11
296.8265064829
 21
-129.5926042976
 31
0.0
  0
SPLINE
  5
DC
330
1F
100
AcDbEntity
  8
0
  6
Continuous
 62
     7
370
    25
100
AcDbSpline
210
0.0
220
0.0
230
1.0
 70
     8
 71
     3
 72
    10
 73
     6
 74
     0
 42
0.00000001
 43
0.00000001
 40
0.0
 40
0.0
 40
0.0
 40
0.0
 40
0.3565922933655211
 40
0.7171955853319179
 40
1.0
 40
1.0
 40
1.0
 40
1.0
 10
356.0866364102302
 20
-37.63638184490998
 30
0.0
 10
355.650574251048
 20
-37.21608397450128
 30
0.0
 10
354.7735450462267
 20
-36.37076066609052
 30
0.0
 10
353.4457678738009
 20
-35.33524454577974
 30
0.0
 10
352.5286473262013
 20
-34.77050630964366
 30
0.0
 10
352.1255347477078
 20
-34.52228039524397
 30
0.0
  0
SPLINE
  5
DD
330
1F
100
AcDbEntity
  8
0
  6
Continuous
 62
     7
370
    25
100
AcDbSpline
210
0.0
220
0.0
230
1.0
 70
     8
 71
     3
 72
    10
 73
     6
 74
     0
 42
0.00000001
 43
0.00000001
 40
0.0
 40
0.0
 40
0.0
 40
0.0
 40
0.3414833165525048
 40
0.6962923402077733
 40
1.0
 40
1.0
 40
1.0
 40
1.0
 10
297.1025166090378
 20
-129.7455714755411
 30
0.0
 10
297.6146118074047
 20
-130.0139995603229
 30
0.0
 10
298.6587857005247
 20
-130.5613306019009
 30
0.0
 10
300.2437832345207
 20
-131.1863353599755
 30
0.0
 10
301.3358223586074
 20
-131.4869417808135
 30
0.0
 10
301.8394704135687
 20
-131.625581355005
 30
0.0
  0
LINE
  5
DE
330
1F
100
AcDbEntity
  8
0
  6
Continuous
 62
     7
370
    25
100
AcDbLine
 10
303.9019686378
 20
-132.0630600859
 30
0.0
 11
350.3751938294
 21
-139.3653198664
 31
0.0
  0
LINE
  5
DF
330
1F
100
AcDbEntity
  8
0
  6
Continuous
 62
     7
370
    25
100
AcDbLine
 10
387.0636934172
 20
-75.8120884018
 30
0.0
 11
357.4997043867
 21
-39.2189987507
 31
0.0
  0
LINE
  5
E0
330
1F
100
AcDbEntity
  8
0
  6
Continuous
 62
     7
370
    25
100
AcDbLine
 10
435.9159423567
 20
-103.0803198569
 30
0.0
 11
385.6502001036
 21
-74.0625245153
 31
0.0
  0
LINE
  5
E1
330
1F
100
AcDbEntity
  8
0
  6
Continuous
 62
     7
370
    25
100
AcDbLine
 10
348.1532476297
 20
-139.0161891938
 30
0.0
 11
398.4189898829
 21
-168.0339845355
 31
0.0
  0
LWPOLYLINE
  5
E2
330
1F
100
AcDbEntity
  8
0
  6
Continuous
 62
     7
370
    25
100
AcDbPolyline
 90
      109
 70
   128
 43
0.0
 10
224.1273148559
 20
-69.0198910826
 10
224.1931120576
 20
-66.3706377473
 10
224.390281026
 20
-63.6543808145
 10
224.7181546035
 20
-60.8803112379
 10
225.1756233699
 20
-58.0578155909
 10
225.7611393956
 20
-55.1964443052
 10
226.4727214798
 20
-52.3058793556
 10
227.3079618538
 20
-49.3959014989
 10
228.2640343287
 20
-46.476357179
 10
229.3377038579
 20
-43.5571252097
 10
230.5253374835
 20
-40.648083348
 10
231.8229166292
 20
-37.7590748706
 10
233.2260506981
 20
-34.8998752678
 10
234.7299919285
 20
-32.080159166
 10
236.3296514593
 20
-29.3094675918
 10
238.0196165492
 20
-26.5971756886
 10
239.7941688911
 20
-23.9524609936
 10
241.6473039617
 20
-21.3842723841
 10
243.5727513385
 20
-18.9012997975
 10
245.5639959171
 20
-16.511944827
 10
247.614299956
 20
-14.2242922935
 10
249.7167258755
 20
-12.046082889
 10
251.8641597318
 20
-9.9846869847
 10
254.0493352883
 20
-8.0470796919
 10
256.2648586029
 20
-6.2398172601
 10
258.5032330457
 20
-4.5690148935
 10
260.7568846664
 20
-3.0403260584
 10
263.0181878212
 20
-1.6589233538
 10
265.2794909759
 20
-0.4294810093
 10
267.5331425966
 20
0.6438409314
 10
269.7715170394
 20
1.5574106867
 10
271.987040354
 20
2.3081370255
 10
274.1722159105
 20
2.8934797278
 10
276.3196497668
 20
3.311458179
 10
278.4220756863
 20
3.5606580723
 10
280.4723797252
 20
3.6402361943
 10
282.4636243038
 20
3.5499232776
 10
284.3890716806
 20
3.2900249128
 10
286.2422067512
 20
2.8614205135
 10
288.0167590931
 20
2.2655603414
 10
289.706724183
 20
1.5044605986
 10
291.3063837138
 20
0.5806966058
 10
292.8103249442
 20
-0.502605912
 10
294.2134590131
 20
-1.7417814021
 10
295.5110381588
 20
-3.1326368868
 10
296.6986717844
 20
-4.6704661516
 10
297.7723413136
 20
-6.3500656688
 10
298.7284137885
 20
-8.1657522054
 10
299.5636541625
 20
-10.111382053
 10
300.2752362467
 20
-12.180371816
 10
300.8607522724
 20
-14.3657206879
 10
301.3182210388
 20
-16.6600341399
 10
301.6460946163
 20
-19.0555489416
 10
301.8432635847
 20
-21.5441594291
 10
301.9090607864
 20
-24.1174449324
 10
301.8432635847
 20
-26.7666982677
 10
301.6460946163
 20
-29.4829552005
 10
301.3182210388
 20
-32.2570247771
 10
300.8607522724
 20
-35.0795204242
 10
300.2752362467
 20
-37.9408917098
 10
299.5636541625
 20
-40.8314566594
 10
298.7284137885
 20
-43.7414345161
 10
297.7723413136
 20
-46.660978836
 10
296.6986717844
 20
-49.5802108053
 10
295.5110381588
 20
-52.489252667
 10
294.2134590131
 20
-55.3782611444
 10
292.8103249442
 20
-58.2374607472
 10
291.3063837138
 20
-61.057176849
 10
289.706724183
 20
-63.8278684232
 10
288.0167590931
 20
-66.5401603264
 10
286.2422067512
 20
-69.1848750214
 10
284.3890716806
 20
-71.7530636309
 10
282.4636243038
 20
-74.2360362175
 10
280.4723797252
 20
-76.625391188
 10
278.4220756863
 20
-78.9130437215
 10
276.3196497668
 20
-81.091253126
 10
274.1722159105
 20
-83.1526490303
 10
271.987040354
 20
-85.0902563232
 10
269.7715170394
 20
-86.8975187549
 10
267.5331425966
 20
-88.5683211215
 10
265.2794909759
 20
-90.0970099567
 10
263.0181878212
 20
-91.4784126612
 10
260.7568846664
 20
-92.7078550057
 10
258.5032330457
 20
-93.7811769464
 10
256.2648586029
 20
-94.6947467017
 10
254.0493352883
 20
-95.4454730406
 10
251.8641597318
 20
-96.0308157428
 10
249.7167258755
 20
-96.448794194
 10
247.614299956
 20
-96.6979940873
 10
245.5639959171
 20
-96.7775722093
 10
243.5727513385
 20
-96.6872592927
 10
241.6473039617
 20
-96.4273609278
 10
239.7941688911
 20
-95.9987565285
 10
238.0196165492
 20
-95.4028963564
 10
236.3296514593
 20
-94.6417966136
 10
234.7299919285
 20
-93.7180326209
 10
233.2260506981
 20
-92.634730103
 10
231.8229166292
 20
-91.3955546129
 10
230.5253374835
 20
-90.0046991282
 10
229.3377038579
 20
-88.4668698635
 10
228.2640343287
 20
-86.7872703462
 10
227.3079618538
 20
-84.9715838096
 10
226.4727214798
 20
-83.025953962
 10
225.7611393956
 20
-80.956964199
 10
225.1756233699
 20
-78.7716153271
 10
224.7181546035
 20
-76.4773018751
 10
224.390281026
 20
-74.0817870734
 10
224.1931120576
 20
-71.5931765859
 10
224.1273148559
 20
-69.0198910826
  0
LWPOLYLINE
  5
E3
330
1F
100
AcDbEntity
  8
0
  6
Continuous
 62
     7
370
    25
100
AcDbPolyline
 90
       99
 70
   128
 43
0.0
 10
231.1983826678
 20
-64.9378505235
 10
231.2637598701
 20
-62.5458913431
 10
231.4596228282
 20
-60.0882783249
 10
231.7851666992
 20
-57.575110328
 10
232.2390537534
 20
-55.0167144987
 10
232.8194188716
 20
-52.4236038343
 10
233.523877209
 20
-49.8064339826
 10
234.3495339952
 20
-47.1759594561
 10
235.2929964294
 20
-44.5429894388
 10
236.3503876221
 20
-41.9183433692
 10
237.517362526
 20
-39.312806481
 10
238.789125791
 20
-36.7370854842
 10
240.160451469
 20
-34.2017645689
 10
241.6257044886
 20
-31.7172619125
 10
243.1788638109
 20
-29.2937868694
 10
244.8135471711
 20
-26.9412980183
 10
246.5230373045
 20
-24.6694622405
 10
248.3003095497
 20
-22.4876149966
 10
250.1380607137
 20
-20.4047219649
 10
252.0287390827
 20
-18.4293421997
 10
253.9645754538
 20
-16.56959296
 10
255.9376150601
 20
-14.8331163545
 10
257.9397502587
 20
-13.227047938
 10
259.9627538465
 20
-11.7579873902
 10
261.998312868
 20
-10.4319713958
 10
264.0380627743
 20
-9.2544488391
 10
266.0736217958
 20
-8.2302584129
 10
268.0966253836
 20
-7.3636087352
 10
270.0987605822
 20
-6.6580610556
 10
272.0718001885
 20
-6.1165146207
 10
274.0076365596
 20
-5.7411947611
 10
275.8983149286
 20
-5.5336437464
 10
277.7360660926
 20
-5.4947144485
 10
279.5133383378
 20
-5.6245668361
 10
281.2228284712
 20
-5.9226673178
 10
282.8575118314
 20
-6.3877909349
 10
284.4106711537
 20
-7.0180263947
 10
285.8759241733
 20
-7.8107839245
 10
287.2472498513
 20
-8.7628059135
 10
288.5190131163
 20
-9.8701802992
 10
289.6859880202
 20
-11.1283566427
 10
290.7433792129
 20
-12.5321648275
 10
291.6868416471
 20
-14.0758363046
 10
292.5124984333
 20
-15.753027797
 10
293.2169567707
 20
-17.5568473648
 10
293.7973218889
 20
-19.4798827268
 10
294.2512089431
 20
-21.5142317179
 10
294.5767528141
 20
-23.651534762
 10
294.7726157722
 20
-25.8830092222
 10
294.8379929745
 20
-28.1994854915
 10
294.7726157722
 20
-30.5914446719
 10
294.5767528141
 20
-33.0490576901
 10
294.2512089431
 20
-35.562225687
 10
293.7973218889
 20
-38.1206215163
 10
293.2169567707
 20
-40.7137321808
 10
292.5124984333
 20
-43.3309020324
 10
291.6868416471
 20
-45.9613765589
 10
290.7433792129
 20
-48.5943465762
 10
289.6859880202
 20
-51.2189926458
 10
288.5190131163
 20
-53.824529534
 10
287.2472498513
 20
-56.4002505308
 10
285.8759241733
 20
-58.9355714461
 10
284.4106711537
 20
-61.4200741025
 10
282.8575118314
 20
-63.8435491456
 10
281.2228284712
 20
-66.1960379967
 10
279.5133383378
 20
-68.4678737745
 10
277.7360660926
 20
-70.6497210184
 10
275.8983149286
 20
-72.7326140501
 10
274.0076365596
 20
-74.7079938153
 10
272.0718001885
 20
-76.567743055
 10
270.0987605822
 20
-78.3042196605
 10
268.0966253836
 20
-79.910288077
 10
266.0736217958
 20
-81.3793486248
 10
264.0380627743
 20
-82.7053646192
 10
261.998312868
 20
-83.8828871759
 10
259.9627538465
 20
-84.9070776021
 10
257.9397502587
 20
-85.7737272798
 10
255.9376150601
 20
-86.4792749594
 10
253.9645754538
 20
-87.0208213943
 10
252.0287390827
 20
-87.396141254
 10
250.1380607137
 20
-87.6036922686
 10
248.3003095497
 20
-87.6426215665
 10
246.5230373045
 20
-87.512769179
 10
244.8135471711
 20
-87.2146686972
 10
243.1788638109
 20
-86.7495450801
 10
241.6257044886
 20
-86.1193096203
 10
240.160451469
 20
-85.3265520905
 10
238.789125791
 20
-84.3745301015
 10
237.517362526
 20
-83.2671557158
 10
236.3503876221
 20
-82.0089793724
 10
235.2929964294
 20
-80.6051711876
 10
234.3495339952
 20
-79.0614997104
 10
233.523877209
 20
-77.3843082181
 10
232.8194188716
 20
-75.5804886502
 10
232.2390537534
 20
-73.6574532883
 10
231.7851666992
 20
-71.6231042971
 10
231.4596228282
 20
-69.485801253
 10
231.2637598701
 20
-67.2543267928
 10
231.1983826678
 20
-64.9378505235
  0
LINE
  5
E4
330
1F
100
AcDbEntity
  8
0
  6
Continuous
 62
     7
370
    25
100
AcDbLine
 10
351.8220367779
 20
-34.3272294357
 30
0.0
 11
352.1115836225
 21
-34.4979385048
 31
0.0
  0
LINE
  5
E5
330
1F
100
AcDbEntity
  8
0
  6
Continuous
 62
     7
370
    25
100
AcDbLine
 10
297.0822986258
 20
-129.7375483403
 30
0.0
 11
296.8265064829
 21
-129.5926042976
 31
0.0
  0
ARC
  5
E6
330
1F
100
AcDbEntity
  8
0
  6
Continuous
 62
     7
370
    25
100
AcDbCircle
 10
341.0064651337
 20
-52.5804271115
 30
0.0
 40
21.225578098744
100
AcDbArc
 50
32.2040337533
 51
44.3944823611
  0
ARC
  5
E7
330
1F
100
AcDbEntity
  8
0
  6
Continuous
 62
     7
370
    25
100
AcDbCircle
 10
307.2280419874
 20
-111.0803173819
 30
0.0
 40
21.24401997184369
100
AcDbArc
 50
255.6429651648
 51
267.9726575465
  0
LWPOLYLINE
  5
E8
330
1F
100
AcDbEntity
  8
0
  6
Continuous
 62
     7
370
    25
100
AcDbPolyline
 90
       46
 70
   128
 43
0.0
 10
435.9159423567
 20
-103.0803198569
 10
436.7262641163
 20
-103.5904072676
 10
437.9405228158
 20
-104.5341105384
 10
439.0512911919
 20
-105.6323690422
 10
440.0530354522
 20
-106.8797113104
 10
440.9407649573
 20
-108.2699231466
 10
441.7100570834
 20
-109.7960785853
 10
442.3570792558
 20
-111.450574397
 10
442.8786080427
 20
-113.2251679666
 10
443.2720452138
 20
-115.1110183584
 10
443.535430685
 20
-117.0987303604
 10
443.6674522831
 20
-119.1784012915
 10
443.6674522831
 20
-121.3396703358
 10
443.535430685
 20
-123.5717701596
 10
443.2720452138
 20
-125.8635805537
 10
442.8786080427
 20
-128.2036838342
 10
442.3570792558
 20
-130.5804217242
 10
441.7100570834
 20
-132.981953435
 10
440.9407649573
 20
-135.3963146566
 10
440.0530354522
 20
-137.8114771626
 10
439.0512911919
 20
-140.2154087351
 10
437.9405228158
 20
-142.5961331079
 10
436.7262641163
 20
-144.9417896318
 10
435.4145644689
 20
-147.240692364
 10
434.0119586954
 20
-149.4813882868
 10
432.5254345072
 20
-151.6527143659
 10
430.9623976931
 20
-153.7438531638
 10
429.3306352237
 20
-155.7443867324
 10
427.6382764577
 20
-157.6443485139
 10
425.8937526413
 20
-159.4342729944
 10
424.1057549044
 20
-161.1052428601
 10
422.2831909618
 20
-162.6489334233
 10
420.4351407353
 20
-164.0576540951
 10
418.5708111183
 20
-165.3243867001
 10
416.6994901071
 20
-166.4428204402
 10
414.8305005288
 20
-167.4073833346
 10
412.9731535955
 20
-168.2132699797
 10
411.1367025163
 20
-168.8564654885
 10
409.330296398
 20
-169.3337654936
 10
407.562934665
 20
-169.6427921102
 10
405.8434222246
 20
-169.7820057834
 10
404.1803256013
 20
-169.7507129575
 10
402.5819302588
 20
-169.5490695319
 10
401.0561993222
 20
-169.178080084
 10
399.6107339064
 20
-168.6395928645
 10
398.4189898829
 20
-168.0339845355
  0
LWPOLYLINE
  5
E9
330
1F
100
AcDbEntity
  8
0
  6
Continuous
 62
     1
370
    25
100
AcDbPolyline
 90
       56
 70
   128
 43
0.0
 10
352.1115836225
 20
-34.4979385048
 10
352.6124675231
 20
-34.8105522533
 10
354.1164087535
 20
-35.8938547711
 10
355.5195428223
 20
-37.1330302612
 10
356.8171219681
 20
-38.523885746
 10
358.0047555937
 20
-40.0617150107
 10
359.0784251228
 20
-41.741314528
 10
360.0344975977
 20
-43.5570010646
 10
360.8697379718
 20
-45.5026309122
 10
361.5813200559
 20
-47.5716206751
 10
362.1668360816
 20
-49.756969547
 10
362.624304848
 20
-52.0512829991
 10
362.9521784256
 20
-54.4467978008
 10
363.1493473939
 20
-56.9354082883
 10
363.2151445956
 20
-59.5086937915
 10
363.1493473939
 20
-62.1579471269
 10
362.9521784256
 20
-64.8742040597
 10
362.624304848
 20
-67.6482736363
 10
362.1668360816
 20
-70.4707692833
 10
361.5813200559
 20
-73.332140569
 10
360.8697379718
 20
-76.2227055185
 10
360.0344975977
 20
-79.1326833752
 10
359.0784251228
 20
-82.0522276952
 10
358.0047555937
 20
-84.9714596644
 10
356.8171219681
 20
-87.8805015262
 10
355.5195428223
 20
-90.7695100035
 10
354.1164087535
 20
-93.6287096063
 10
352.6124675231
 20
-96.4484257082
 10
351.0128079922
 20
-99.2191172823
 10
349.3228429023
 20
-101.9314091855
 10
347.5482905604
 20
-104.5761238806
 10
345.6951554898
 20
-107.1443124901
 10
343.769708113
 20
-109.6272850767
 10
341.7784635345
 20
-112.0166400472
 10
339.7281594955
 20
-114.3042925807
 10
337.625733576
 20
-116.4825019852
 10
335.4782997198
 20
-118.5438978894
 10
333.2931241632
 20
-120.4815051823
 10
331.0776008487
 20
-122.2887676141
 10
328.8392264058
 20
-123.9595699807
 10
326.5855747851
 20
-125.4882588158
 10
324.3242716304
 20
-126.8696615204
 10
322.0629684756
 20
-128.0991038649
 10
319.809316855
 20
-129.1724258056
 10
317.5709424121
 20
-130.0859955608
 10
315.3554190976
 20
-130.8367218997
 10
313.170243541
 20
-131.422064602
 10
311.0228096847
 20
-131.8400430531
 10
308.9203837652
 20
-132.0892429465
 10
306.8700797263
 20
-132.1688210684
 10
304.8788351478
 20
-132.0785081518
 10
302.953387771
 20
-131.818609787
 10
301.1002527004
 20
-131.3900053877
 10
299.3257003584
 20
-130.7941452155
 10
297.6357352686
 20
-130.0330454728
 10
297.0822986258
 20
-129.7375483403
  0
LWPOLYLINE
  5
EA
330
1F
100
AcDbEntity
  8
0
  6
Continuous
 62
     1
370
    25
100
AcDbPolyline
 90
       46
 70
   128
 43
0.0
 10
358.966607931
 20
-41.2685556338
 10
359.4378348779
 20
-42.0453355409
 10
360.392376251
 20
-43.8581143472
 10
361.2262790297
 20
-45.8006283667
 10
361.9367215511
 20
-47.8663047469
 10
362.5212999024
 20
-50.0481538929
 10
362.9780360556
 20
-52.3387931177
 10
363.3053845602
 20
-54.7304716233
 10
363.5022377724
 20
-57.2150967268
 10
363.5679296032
 20
-59.7842612431
 10
363.5022377724
 20
-62.429271933
 10
363.3053845602
 20
-65.1411789173
 10
362.9780360556
 20
-67.9108059615
 10
362.5212999024
 20
-70.7287815242
 10
361.9367215511
 20
-73.5855704681
 10
361.2262790297
 20
-76.4715063237
 10
360.392376251
 20
-79.3768239978
 10
359.4378348779
 20
-82.2916928148
 10
358.3658847763
 20
-85.2062497813
 10
357.1801530861
 20
-88.1106329593
 10
355.8846519478
 20
-90.9950148354
 10
354.4837649274
 20
-93.8496355743
 10
352.982232183
 20
-96.6648360431
 10
351.3851344261
 20
-99.4310904945
 10
349.6978757301
 20
-102.1390387991
 10
347.9261652442
 20
-104.779518117
 10
346.0759978759
 20
-107.343593902
 10
344.1536340059
 20
-109.8225901334
 10
342.1655783051
 20
-112.2081186725
 10
340.1185577246
 20
-114.4921076459
 10
338.0194987341
 20
-116.6668287579
 10
335.8755038848
 20
-118.7249234406
 10
333.6938277766
 20
-120.6594277532
 10
331.4818525109
 20
-122.4637959454
 10
329.2470627117
 20
-124.1319226063
 10
326.9970202004
 20
-125.6581633234
 10
324.7393384086
 20
-127.0373537812
 10
322.4816566167
 20
-128.2648272359
 10
320.2316141054
 20
-129.3364303057
 10
317.9968243062
 20
-130.248537025
 10
315.7848490405
 20
-130.9980611136
 10
313.6031729323
 20
-131.582466419
 10
311.459178083
 20
-131.9997754988
 10
309.3601190926
 20
-132.2485763111
 10
307.3130985121
 20
-132.3280269927
 10
306.4765046602
 20
-132.3110398427
  0
LWPOLYLINE
  5
EB
330
1F
100
AcDbEntity
  8
0
  6
Continuous
 62
     1
370
    25
100
AcDbPolyline
 90
       41
 70
   128
 43
0.0
 10
387.0636934172
 20
-75.8120884018
 10
387.1787926085
 20
-75.9564381065
 10
388.1063788651
 20
-77.2762269696
 10
388.9196329672
 20
-78.7322181436
 10
389.6145928226
 20
-80.3173181858
 10
390.1878726567
 20
-82.0238046482
 10
390.6366795078
 20
-83.8433637001
 10
390.958826834
 20
-85.7671306329
 10
391.1527451659
 20
-87.7857330475
 10
391.2174897529
 20
-89.8893365156
 10
391.1527451659
 20
-92.0676924928
 10
390.958826834
 20
-94.3101882476
 10
390.6366795078
 20
-96.6058985662
 10
390.1878726567
 20
-98.9436389786
 10
389.6145928226
 20
-101.3120202486
 10
388.9196329672
 20
-103.6995038606
 10
388.1063788651
 20
-106.0944582345
 10
387.1787926085
 20
-108.4852153934
 10
386.1413933043
 20
-110.8601278086
 10
384.9992350578
 20
-113.2076251457
 10
383.7578823491
 20
-115.5162706334
 10
382.4233829238
 20
-117.7748167832
 10
381.002238329
 20
-119.9722601852
 10
379.5013722383
 20
-122.097895116
 10
377.9280967204
 20
-124.1413656959
 10
376.2900766154
 20
-126.0927163416
 10
374.5952921928
 20
-127.942440269
 10
372.8520002718
 20
-129.6815258089
 10
371.0686939954
 20
-131.3015003116
 10
369.2540614526
 20
-132.794471424
 10
367.4169433507
 20
-134.1531655409
 10
365.5662899445
 20
-135.3709632412
 10
363.7111174312
 20
-136.4419315369
 10
361.8604640249
 20
-137.3608527781
 10
360.023345923
 20
-138.123250073
 10
358.2087133802
 20
-138.7254090984
 10
356.4254071039
 20
-139.1643961962
 10
354.6821151829
 20
-139.4380726654
 10
352.9873307602
 20
-139.5451051817
 10
351.3493106553
 20
-139.4849722934
 10
350.3751938294
 20
-139.3653198664
  0
LWPOLYLINE
  5
EC
330
1F
100
AcDbEntity
  8
0
  6
Continuous
 62
     1
370
    25
100
AcDbPolyline
 90
       42
 70
   128
 43
0.0
 10
386.3740733424
 20
-74.9585050373
 10
386.9375955381
 20
-75.5477729099
 10
387.9393397984
 20
-76.7951151781
 10
388.8270693034
 20
-78.1853270143
 10
389.5963614296
 20
-79.711482453
 10
390.243383602
 20
-81.3659782647
 10
390.7649123889
 20
-83.1405718343
 10
391.15834956
 20
-85.026422226
 10
391.4217350312
 20
-87.0141342281
 10
391.5537566293
 20
-89.0938051592
 10
391.5537566293
 20
-91.2550742035
 10
391.4217350312
 20
-93.4871740272
 10
391.15834956
 20
-95.7789844214
 10
390.7649123889
 20
-98.1190877019
 10
390.243383602
 20
-100.4958255919
 10
389.5963614296
 20
-102.8973573027
 10
388.8270693034
 20
-105.3117185243
 10
387.9393397984
 20
-107.7268810303
 10
386.9375955381
 20
-110.1308126028
 10
385.826827162
 20
-112.5115369755
 10
384.6125684624
 20
-114.8571934994
 10
383.3008688151
 20
-117.1560962317
 10
381.8982630416
 20
-119.3967921545
 10
380.4117388534
 20
-121.5681182336
 10
378.8487020393
 20
-123.6592570315
 10
377.2169395699
 20
-125.6597906001
 10
375.5245808039
 20
-127.5597523816
 10
373.7800569875
 20
-129.3496768621
 10
371.9920592506
 20
-131.0206467278
 10
370.169495308
 20
-132.564337291
 10
368.3214450815
 20
-133.9730579628
 10
366.4571154645
 20
-135.2397905678
 10
364.5857944532
 20
-136.3582243079
 10
362.716804875
 20
-137.3227872023
 10
360.8594579417
 20
-138.1286738473
 10
359.0230068625
 20
-138.7718693562
 10
357.2166007442
 20
-139.2491693613
 10
355.4492390112
 20
-139.5581959779
 10
353.7297265708
 20
-139.6974096511
 10
352.0666299475
 20
-139.6661168252
 10
350.468234605
 20
-139.4644733996
 10
349.2911429253
 20
-139.1949847695
  0
ENDSEC
  0
SECTION
  2
OBJECTS
  0
DICTIONARY
  5
C
330
0
100
AcDbDictionary
281
     1
  3
ACAD_GROUP
350
D
  3
ACAD_LAYOUT
350
1A
  3
ACAD_MLINESTYLE
350
17
  3
ACAD_PLOTSETTINGS
350
19
  3
ACAD_PLOTSTYLENAME
350
E
  3
ACAD_SCALELIST
350
47
  3
DWGPROPS
350
ED
  0
DICTIONARY
  5
D
102
{ACAD_REACTORS
330
C
102
}
330
C
100
AcDbDictionary
281
     1
  0
DICTIONARY
  5
1A
102
{ACAD_REACTORS
330
C
102
}
330
C
100
AcDbDictionary
281
     1
  3
Layout1
350
1E
  3
Layout2
350
26
  3
Model
350
22
  0
DICTIONARY
  5
17
102
{ACAD_REACTORS
330
C
102
}
330
C
100
AcDbDictionary
281
     1
  3
Standard
350
18
  0
DICTIONARY
  5
19
102
{ACAD_REACTORS
330
C
102
}
330
C
100
AcDbDictionary
281
     1
  0
ACDBDICTIONARYWDFLT
  5
E
102
{ACAD_REACTORS
330
C
102
}
330
C
100
AcDbDictionary
281
     1
  3
Normal
350
F
100
AcDbDictionaryWithDefault
340
F
  0
DICTIONARY
  5
47
102
{ACAD_REACTORS
330
C
102
}
330
C
100
AcDbDictionary
281
     1
  3
A0
350
48
  3
A1
350
49
  3
A2
350
4A
  3
A3
350
4B
  3
A4
350
4C
  3
A5
350
4D
  3
A6
350
4E
  3
A7
350
4F
  3
A8
350
50
  3
A9
350
51
  3
B0
350
52
  3
B1
350
53
  3
B2
350
54
  3
B3
350
55
  3
B4
350
56
  3
B5
350
57
  3
B6
350
58
  3
B7
350
59
  3
B8
350
5A
  3
B9
350
5B
  3
C0
350
5C
  3
C1
350
5D
  3
C2
350
5E
  3
C3
350
5F
  3
C4
350
60
  3
C5
350
61
  3
C6
350
62
  3
C7
350
63
  3
C8
350
64
  3
C9
350
65
  3
D0
350
66
  3
D1
350
67
  3
D2
350
68
  0
XRECORD
  5
ED
102
{ACAD_REACTORS
330
C
102
}
330
C
100
AcDbXrecord
280
     1
  1
DWGPROPS COOKIE
  2

  3

  4

  6

  7

  8
b.kav
  9

300
=
301
=
302
=
303
=
304
=
305
=
306
=
307
=
308
=
309
=
 40
0.0
 41
2460559.500944155
 42
2460559.500944456
  1

 90
        0
  0
LAYOUT
  5
1E
102
{ACAD_REACTORS
330
1A
102
}
330
1A
100
AcDbPlotSettings
  1

  2
none_device
  4

  6

 40
0.0
 41
0.0
 42
0.0
 43
0.0
 44
0.0
 45
0.0
 46
0.0
 47
0.0
 48
0.0
 49
0.0
140
0.0
141
0.0
142
1.0
143
1.0
 70
   688
 72
     1
 73
     0
 74
     5
  7

 75
    16
147
1.0
148
0.0
149
0.0
100
AcDbLayout
  1
Layout1
 70
     1
 71
     1
 10
0.0
 20
0.0
 11
420.0
 21
297.0
 12
0.0
 22
0.0
 32
0.0
 14
1.0000000000E+20
 24
1.0000000000E+20
 34
1.0000000000E+20
 15
-1.0000000000E+20
 25
-1.0000000000E+20
 35
-1.0000000000E+20
146
0.0
 13
0.0
 23
0.0
 33
0.0
 16
1.0
 26
0.0
 36
0.0
 17
0.0
 27
1.0
 37
0.0
 76
     0
330
1B
  0
LAYOUT
  5
26
102
{ACAD_REACTORS
330
1A
102
}
330
1A
100
AcDbPlotSettings
  1

  2
none_device
  4

  6

 40
0.0
 41
0.0
 42
0.0
 43
0.0
 44
0.0
 45
0.0
 46
0.0
 47
0.0
 48
0.0
 49
0.0
140
0.0
141
0.0
142
1.0
143
1.0
 70
   688
 72
     1
 73
     0
 74
     5
  7

 75
    16
147
1.0
148
0.0
149
0.0
100
AcDbLayout
  1
Layout2
 70
     1
 71
     2
 10
0.0
 20
0.0
 11
0.0
 21
0.0
 12
0.0
 22
0.0
 32
0.0
 14
0.0
 24
0.0
 34
0.0
 15
0.0
 25
0.0
 35
0.0
146
0.0
 13
0.0
 23
0.0
 33
0.0
 16
1.0
 26
0.0
 36
0.0
 17
0.0
 27
1.0
 37
0.0
 76
     0
330
23
  0
LAYOUT
  5
22
102
{ACAD_REACTORS
330
1A
102
}
330
1A
100
AcDbPlotSettings
  1

  2
none_device
  4
Letter_(8.50_x_11.00_Inches)
  6

 40
6.35
 41
6.35
 42
6.35000508
 43
6.35000508
 44
215.9
 45
279.4
 46
0.0
 47
0.0
 48
0.0
 49
0.0
140
0.0
141
0.0
142
1.0
143
1.0
 70
  1712
 72
     1
 73
     0
 74
     0
  7

 75
     0
147
1.0
148
0.0
149
0.0
100
AcDbLayout
  1
Model
 70
     1
 71
     0
 10
0.0
 20
0.0
 11
279.4
 21
215.9
 12
0.0
 22
0.0
 32
0.0
 14
0.0
 24
0.0
 34
0.0
 15
279.4
 25
215.9
 35
0.0
146
0.0
 13
0.0
 23
0.0
 33
0.0
 16
1.0
 26
0.0
 36
0.0
 17
0.0
 27
1.0
 37
0.0
 76
     0
330
1F
331
29
  0
MLINESTYLE
  5
18
102
{ACAD_REACTORS
330
17
102
}
330
17
100
AcDbMlineStyle
  2
Standard
 70
     0
  3

 62
   256
 51
90.0
 52
90.0
 71
     2
 49
0.5
 62
   256
  6
BYLAYER
 49
-0.5
 62
   256
  6
BYLAYER
  0
ACDBPLACEHOLDER
  5
F
102
{ACAD_REACTORS
330
E
102
}
330
E
  0
SCALE
  5
48
102
{ACAD_REACTORS
330
47
102
}
330
47
100
AcDbScale
 70
     0
300
1:1
140
1.0
141
1.0
290
     1
  0
SCALE
  5
49
102
{ACAD_REACTORS
330
47
102
}
330
47
100
AcDbScale
 70
     0
300
1:2
140
1.0
141
2.0
290
     0
  0
SCALE
  5
4A
102
{ACAD_REACTORS
330
47
102
}
330
47
100
AcDbScale
 70
     0
300
1:4
140
1.0
141
4.0
290
     0
  0
SCALE
  5
4B
102
{ACAD_REACTORS
330
47
102
}
330
47
100
AcDbScale
 70
     0
300
1:5
140
1.0
141
5.0
290
     0
  0
SCALE
  5
4C
102
{ACAD_REACTORS
330
47
102
}
330
47
100
AcDbScale
 70
     0
300
1:8
140
1.0
141
8.0
290
     0
  0
SCALE
  5
4D
102
{ACAD_REACTORS
330
47
102
}
330
47
100
AcDbScale
 70
     0
300
1:10
140
1.0
141
10.0
290
     0
  0
SCALE
  5
4E
102
{ACAD_REACTORS
330
47
102
}
330
47
100
AcDbScale
 70
     0
300
1:16
140
1.0
141
16.0
290
     0
  0
SCALE
  5
4F
102
{ACAD_REACTORS
330
47
102
}
330
47
100
AcDbScale
 70
     0
300
1:20
140
1.0
141
20.0
290
     0
  0
SCALE
  5
50
102
{ACAD_REACTORS
330
47
102
}
330
47
100
AcDbScale
 70
     0
300
1:30
140
1.0
141
30.0
290
     0
  0
SCALE
  5
51
102
{ACAD_REACTORS
330
47
102
}
330
47
100
AcDbScale
 70
     0
300
1:40
140
1.0
141
40.0
290
     0
  0
SCALE
  5
52
102
{ACAD_REACTORS
330
47
102
}
330
47
100
AcDbScale
 70
     0
300
1:50
140
1.0
141
50.0
290
     0
  0
SCALE
  5
53
102
{ACAD_REACTORS
330
47
102
}
330
47
100
AcDbScale
 70
     0
300
1:100
140
1.0
141
100.0
290
     0
  0
SCALE
  5
54
102
{ACAD_REACTORS
330
47
102
}
330
47
100
AcDbScale
 70
     0
300
2:1
140
2.0
141
1.0
290
     0
  0
SCALE
  5
55
102
{ACAD_REACTORS
330
47
102
}
330
47
100
AcDbScale
 70
     0
300
4:1
140
4.0
141
1.0
290
     0
  0
SCALE
  5
56
102
{ACAD_REACTORS
330
47
102
}
330
47
100
AcDbScale
 70
     0
300
8:1
140
8.0
141
1.0
290
     0
  0
SCALE
  5
57
102
{ACAD_REACTORS
330
47
102
}
330
47
100
AcDbScale
 70
     0
300
10:1
140
10.0
141
1.0
290
     0
  0
SCALE
  5
58
102
{ACAD_REACTORS
330
47
102
}
330
47
100
AcDbScale
 70
     0
300
100:1
140
100.0
141
1.0
290
     0
  0
SCALE
  5
59
102
{ACAD_REACTORS
330
47
102
}
330
47
100
AcDbScale
 70
     0
300
1/128" = 1'-0"
140
0.0078125
141
12.0
290
     0
  0
SCALE
  5
5A
102
{ACAD_REACTORS
330
47
102
}
330
47
100
AcDbScale
 70
     0
300
1/64" = 1'-0"
140
0.015625
141
12.0
290
     0
  0
SCALE
  5
5B
102
{ACAD_REACTORS
330
47
102
}
330
47
100
AcDbScale
 70
     0
300
1/32" = 1'-0"
140
0.03125
141
12.0
290
     0
  0
SCALE
  5
5C
102
{ACAD_REACTORS
330
47
102
}
330
47
100
AcDbScale
 70
     0
300
1/16" = 1'-0"
140
0.0625
141
12.0
290
     0
  0
SCALE
  5
5D
102
{ACAD_REACTORS
330
47
102
}
330
47
100
AcDbScale
 70
     0
300
3/32" = 1'-0"
140
0.09375
141
12.0
290
     0
  0
SCALE
  5
5E
102
{ACAD_REACTORS
330
47
102
}
330
47
100
AcDbScale
 70
     0
300
1/8" = 1'-0"
140
0.125
141
12.0
290
     0
  0
SCALE
  5
5F
102
{ACAD_REACTORS
330
47
102
}
330
47
100
AcDbScale
 70
     0
300
3/16" = 1'-0"
140
0.1875
141
12.0
290
     0
  0
SCALE
  5
60
102
{ACAD_REACTORS
330
47
102
}
330
47
100
AcDbScale
 70
     0
300
1/4" = 1'-0"
140
0.25
141
12.0
290
     0
  0
SCALE
  5
61
102
{ACAD_REACTORS
330
47
102
}
330
47
100
AcDbScale
 70
     0
300
3/8" = 1'-0"
140
0.375
141
12.0
290
     0
  0
SCALE
  5
62
102
{ACAD_REACTORS
330
47
102
}
330
47
100
AcDbScale
 70
     0
300
1/2" = 1'-0"
140
0.5
141
12.0
290
     0
  0
SCALE
  5
63
102
{ACAD_REACTORS
330
47
102
}
330
47
100
AcDbScale
 70
     0
300
3/4" = 1'-0"
140
0.75
141
12.0
290
     0
  0
SCALE
  5
64
102
{ACAD_REACTORS
330
47
102
}
330
47
100
AcDbScale
 70
     0
300
1" = 1'-0"
140
1.0
141
12.0
290
     0
  0
SCALE
  5
65
102
{ACAD_REACTORS
330
47
102
}
330
47
100
AcDbScale
 70
     0
300
1-1/2" = 1'-0"
140
1.5
141
12.0
290
     0
  0
SCALE
  5
66
102
{ACAD_REACTORS
330
47
102
}
330
47
100
AcDbScale
 70
     0
300
3" = 1'-0"
140
3.0
141
12.0
290
     0
  0
SCALE
  5
67
102
{ACAD_REACTORS
330
47
102
}
330
47
100
AcDbScale
 70
     0
300
6" = 1'-0"
140
6.0
141
12.0
290
     0
  0
SCALE
  5
68
102
{ACAD_REACTORS
330
47
102
}
330
47
100
AcDbScale
 70
     0
300
1'-0" = 1'-0"
140
12.0
141
12.0
290
     0
  0
ENDSEC
  0
EOF
